ISO-10303-21;
HEADER;
FILE_DESCRIPTION (( 'STEP AP203' ),
    '1' );
FILE_NAME ('250630 STEP 1-400392-01_3947.STEP',
    '2025-06-30T10:02:20',
    ( '' ),
    ( '' ),
    'SwSTEP 2.0',
    'SolidWorks 2024',
    '' );
FILE_SCHEMA (( 'CONFIG_CONTROL_DESIGN' ));
ENDSEC;

DATA;
#1 = SECURITY_CLASSIFICATION ( '', '', #32 ) ;
#2 = CARTESIAN_POINT ( 'NONE',  ( -8.000000000000000000, -4.898587196589413026E-15, 0.000000000000000000 ) ) ;
#3 = DIRECTION ( 'NONE',  ( -1.000000000000000000, -3.061616997868383141E-16, -0.000000000000000000 ) ) ;
#4 = CARTESIAN_POINT ( 'NONE',  ( 8.000000000000007105, -12.99999999999999822, 0.000000000000000000 ) ) ;
#5 = FACE_OUTER_BOUND ( 'NONE', #201, .T. ) ;
#6 = AXIS2_PLACEMENT_3D ( 'NONE', #215, #19, #107 ) ;
#7 = VERTEX_POINT ( 'NONE', #38 ) ;
#8 = PRODUCT_RELATED_PRODUCT_CATEGORY ( 'detail', '', ( #58 ) ) ;
#9 = DIRECTION ( 'NONE',  ( 3.077735199313689799E-16, -1.000000000000000000, 0.000000000000000000 ) ) ;
#10 = FACE_OUTER_BOUND ( 'NONE', #51, .T. ) ;
#11 = CC_DESIGN_APPROVAL ( #197, ( #31 ) ) ;
#12 = PERSON_AND_ORGANIZATION_ROLE ( 'creator' ) ;
#13 = DIRECTION ( 'NONE',  ( 0.000000000000000000, 0.000000000000000000, 1.000000000000000000 ) ) ;
#14 = ORIENTED_EDGE ( 'NONE', *, *, #54, .F. ) ;
#15 = APPROVAL_STATUS ( 'not_yet_approved' ) ;
#16 = CARTESIAN_POINT ( 'NONE',  ( -7.999999999999988454, -4.898587196589409082E-15, 0.000000000000000000 ) ) ;
#17 = EDGE_CURVE ( 'NONE', #83, #83, #123, .T. ) ;
#18 =( GEOMETRIC_REPRESENTATION_CONTEXT ( 3 ) GLOBAL_UNCERTAINTY_ASSIGNED_CONTEXT ( ( #95 ) ) GLOBAL_UNIT_ASSIGNED_CONTEXT ( ( #101, #40, #62 ) ) REPRESENTATION_CONTEXT ( 'NONE', 'WORKASPACE' ) );
#19 = DIRECTION ( 'NONE',  ( -1.000000000000000000, -3.061616997868383141E-16, -0.000000000000000000 ) ) ;
#20 = CARTESIAN_POINT ( 'NONE',  ( -6.411542731880068402, -4.412262419343057140E-15, 0.000000000000000000 ) ) ;
#21 = DIRECTION ( 'NONE',  ( 3.035766082959412415E-16, -1.000000000000000000, 0.000000000000000000 ) ) ;
#22 = FACE_OUTER_BOUND ( 'NONE', #86, .T. ) ;
#23 = FACE_BOUND ( 'NONE', #221, .T. ) ;
#24 = EDGE_LOOP ( 'NONE', ( #14 ) ) ;
#25 = CALENDAR_DATE ( 2025, 30, 6 ) ;
#26 = CARTESIAN_POINT ( 'NONE',  ( 6.411542731880092383, -4.863247772463482936E-16, 0.000000000000000000 ) ) ;
#27 = CALENDAR_DATE ( 2025, 30, 6 ) ;
#28 = EDGE_CURVE ( 'NONE', #148, #148, #93, .T. ) ;
#29 = EDGE_LOOP ( 'NONE', ( #125 ) ) ;
#30 = DATE_AND_TIME ( #206, #36 ) ;
#31 = PRODUCT_DEFINITION_FORMATION_WITH_SPECIFIED_SOURCE ( 'ANY', '', #58, .NOT_KNOWN. ) ;
#32 = SECURITY_CLASSIFICATION_LEVEL ( 'unclassified' ) ;
#33 = EDGE_CURVE ( 'NONE', #234, #234, #34, .T. ) ;
#34 = CIRCLE ( 'NONE', #147, 13.00000000000000355 ) ;
#35 = CC_DESIGN_PERSON_AND_ORGANIZATION_ASSIGNMENT ( #112, #12, ( #31 ) ) ;
#36 = LOCAL_TIME ( 13, 2, 20.00000000000000000, #118 ) ;
#37 = VERTEX_POINT ( 'NONE', #99 ) ;
#38 = CARTESIAN_POINT ( 'NONE',  ( -3.999999999999980904, -31.00000000000000711, 0.000000000000000000 ) ) ;
#39 = AXIS2_PLACEMENT_3D ( 'NONE', #73, #155, #96 ) ;
#40 =( NAMED_UNIT ( * ) PLANE_ANGLE_UNIT ( ) SI_UNIT ( $, .RADIAN. ) );
#41 = EDGE_LOOP ( 'NONE', ( #224 ) ) ;
#42 = CARTESIAN_POINT ( 'NONE',  ( 6.411542731880103929, -40.00000000000000000, 0.000000000000000000 ) ) ;
#43 = ADVANCED_FACE ( 'NONE', ( #139, #176 ), #122, .F. ) ;
#44 = MECHANICAL_CONTEXT ( 'NONE', #195, 'mechanical' ) ;
#45 = ORIENTED_EDGE ( 'NONE', *, *, #54, .T. ) ;
#46 = DIRECTION ( 'NONE',  ( 3.035766082959411922E-16, -1.000000000000000000, 0.000000000000000000 ) ) ;
#47 = APPROVAL_STATUS ( 'not_yet_approved' ) ;
#48 = AXIS2_PLACEMENT_3D ( 'NONE', #214, #159, #64 ) ;
#49 = FACE_OUTER_BOUND ( 'NONE', #29, .T. ) ;
#50 = PERSON_AND_ORGANIZATION ( #81, #194 ) ;
#51 = EDGE_LOOP ( 'NONE', ( #131 ) ) ;
#52 = FACE_OUTER_BOUND ( 'NONE', #238, .T. ) ;
#53 = PERSON_AND_ORGANIZATION_ROLE ( 'creator' ) ;
#54 = EDGE_CURVE ( 'NONE', #181, #181, #222, .T. ) ;
#55 = DIRECTION ( 'NONE',  ( 2.668805347656625692E-16, -1.000000000000000000, 0.000000000000000000 ) ) ;
#56 = DATE_AND_TIME ( #200, #228 ) ;
#57 = ADVANCED_FACE ( 'NONE', ( #63, #49 ), #183, .T. ) ;
#58 = PRODUCT ( '250630 STEP 1-400392-01_3947', '250630 STEP 1-400392-01_3947', '', ( #44 ) ) ;
#59 = DIRECTION ( 'NONE',  ( 3.077735199313689799E-16, -1.000000000000000000, 0.000000000000000000 ) ) ;
#60 = DIRECTION ( 'NONE',  ( 3.035766082959411922E-16, -1.000000000000000000, 0.000000000000000000 ) ) ;
#61 = AXIS2_PLACEMENT_3D ( 'NONE', #232, #78, #59 ) ;
#62 =( NAMED_UNIT ( * ) SI_UNIT ( $, .STERADIAN. ) SOLID_ANGLE_UNIT ( ) );
#63 = FACE_BOUND ( 'NONE', #218, .T. ) ;
#64 = DIRECTION ( 'NONE',  ( 2.797941090285172590E-16, -1.000000000000000000, 0.000000000000000000 ) ) ;
#65 = VERTEX_POINT ( 'NONE', #42 ) ;
#66 = CONICAL_SURFACE ( 'NONE', #61, 31.00000000000000355, 1.308996938995750092 ) ;
#67 = CARTESIAN_POINT ( 'NONE',  ( -7.999999999999996447, 12.99999999999999822, 0.000000000000000000 ) ) ;
#68 = APPLICATION_PROTOCOL_DEFINITION ( 'international standard', 'config_control_design', 1994, #85 ) ;
#69 = ORIENTED_EDGE ( 'NONE', *, *, #143, .T. ) ;
#70 = ORIENTED_EDGE ( 'NONE', *, *, #189, .F. ) ;
#71 = APPROVAL_DATE_TIME ( #164, #79 ) ;
#72 = AXIS2_PLACEMENT_3D ( 'NONE', #20, #3, #60 ) ;
#73 = CARTESIAN_POINT ( 'NONE',  ( 8.000000000000014211, 4.622231866529366047E-30, 0.000000000000000000 ) ) ;
#74 = AXIS2_PLACEMENT_3D ( 'NONE', #2, #210, #231 ) ;
#75 = FACE_OUTER_BOUND ( 'NONE', #166, .T. ) ;
#76 = AXIS2_PLACEMENT_3D ( 'NONE', #67, #182, #192 ) ;
#77 = CARTESIAN_POINT ( 'NONE',  ( -6.411542731880056856, -40.00000000000001421, 0.000000000000000000 ) ) ;
#78 = DIRECTION ( 'NONE',  ( -1.000000000000000000, -3.061616997868383141E-16, -0.000000000000000000 ) ) ;
#79 = APPROVAL ( #15, 'UNSPECIFIED' ) ;
#80 = CARTESIAN_POINT ( 'NONE',  ( -7.999999999999992895, -13.00000000000000888, 0.000000000000000000 ) ) ;
#81 = PERSON ( 'UNSPECIFIED', 'UNSPECIFIED', 'UNSPECIFIED', ('UNSPECIFIED'), ('UNSPECIFIED'), ('UNSPECIFIED') ) ;
#82 = CARTESIAN_POINT ( 'NONE',  ( 7.999999999999996447, 40.00000000000000000, 0.000000000000000000 ) ) ;
#83 = VERTEX_POINT ( 'NONE', #213 ) ;
#84 = APPROVAL_PERSON_ORGANIZATION ( #134, #197, #87 ) ;
#85 = APPLICATION_CONTEXT ( 'configuration controlled 3d designs of mechanical parts and assemblies' ) ;
#86 = EDGE_LOOP ( 'NONE', ( #69 ) ) ;
#87 = APPROVAL_ROLE ( '' ) ;
#88 = ORIENTED_EDGE ( 'NONE', *, *, #33, .T. ) ;
#89 = PERSON_AND_ORGANIZATION_ROLE ( 'design_owner' ) ;
#90 = EDGE_LOOP ( 'NONE', ( #244 ) ) ;
#91 = DIRECTION ( 'NONE',  ( 3.077735199313689799E-16, -1.000000000000000000, 0.000000000000000000 ) ) ;
#92 = COORDINATED_UNIVERSAL_TIME_OFFSET ( 2, 0, .AHEAD. ) ;
#93 = CIRCLE ( 'NONE', #39, 40.00000000000000000 ) ;
#94 = APPROVAL_PERSON_ORGANIZATION ( #110, #79, #204 ) ;
#95 = UNCERTAINTY_MEASURE_WITH_UNIT (LENGTH_MEASURE( 1.000000000000000082E-05 ), #101, 'distance_accuracy_value', 'NONE');
#96 = DIRECTION ( 'NONE',  ( 3.035766082959412415E-16, -1.000000000000000000, 0.000000000000000000 ) ) ;
#97 = CC_DESIGN_PERSON_AND_ORGANIZATION_ASSIGNMENT ( #50, #135, ( #1 ) ) ;
#98 = PRODUCT_DEFINITION ( 'UNKNOWN', '', #31, #116 ) ;
#99 = CARTESIAN_POINT ( 'NONE',  ( 4.000000000000018652, -31.00000000000000000, 0.000000000000000000 ) ) ;
#100 = CC_DESIGN_PERSON_AND_ORGANIZATION_ASSIGNMENT ( #248, #53, ( #98 ) ) ;
#101 =( LENGTH_UNIT ( ) NAMED_UNIT ( * ) SI_UNIT ( .MILLI., .METRE. ) );
#102 = AXIS2_PLACEMENT_3D ( 'NONE', #105, #161, #9 ) ;
#103 = DIRECTION ( 'NONE',  ( 3.061616997868383141E-16, -1.000000000000000000, 0.000000000000000000 ) ) ;
#104 = ADVANCED_FACE ( 'NONE', ( #245, #239 ), #153, .T. ) ;
#105 = CARTESIAN_POINT ( 'NONE',  ( 4.000000000000008882, -1.224646799147350495E-15, 0.000000000000000000 ) ) ;
#106 = PLANE ( 'NONE',  #133 ) ;
#107 = DIRECTION ( 'NONE',  ( 2.668805347656626678E-16, -1.000000000000000000, 0.000000000000000000 ) ) ;
#108 = EDGE_LOOP ( 'NONE', ( #88 ) ) ;
#109 = DIRECTION ( 'NONE',  ( -3.035766082959412415E-16, 1.000000000000000000, 0.000000000000000000 ) ) ;
#110 = PERSON_AND_ORGANIZATION ( #81, #194 ) ;
#111 = APPROVAL ( #47, 'UNSPECIFIED' ) ;
#112 = PERSON_AND_ORGANIZATION ( #81, #194 ) ;
#113 = CARTESIAN_POINT ( 'NONE',  ( -7.999999999999996447, -4.898587196589411448E-15, 0.000000000000000000 ) ) ;
#114 = APPROVAL_DATE_TIME ( #30, #111 ) ;
#115 = CC_DESIGN_APPROVAL ( #111, ( #1 ) ) ;
#116 = DESIGN_CONTEXT ( 'detailed design', #85, 'design' ) ;
#117 = CC_DESIGN_DATE_AND_TIME_ASSIGNMENT ( #56, #208, ( #98 ) ) ;
#118 = COORDINATED_UNIVERSAL_TIME_OFFSET ( 2, 0, .AHEAD. ) ;
#119 = EDGE_CURVE ( 'NONE', #7, #7, #230, .T. ) ;
#120 = LOCAL_TIME ( 13, 2, 20.00000000000000000, #92 ) ;
#121 = CARTESIAN_POINT ( 'NONE',  ( -8.000000000000000000, -4.898587196589413026E-15, 0.000000000000000000 ) ) ;
#122 = CYLINDRICAL_SURFACE ( 'NONE', #74, 13.00000000000000178 ) ;
#123 = CIRCLE ( 'NONE', #141, 40.00000000000000711 ) ;
#124 = FACE_OUTER_BOUND ( 'NONE', #168, .T. ) ;
#125 = ORIENTED_EDGE ( 'NONE', *, *, #189, .T. ) ;
#126 = DIRECTION ( 'NONE',  ( 1.000000000000000000, 3.061616997868383141E-16, 0.000000000000000000 ) ) ;
#127 = CYLINDRICAL_SURFACE ( 'NONE', #48, 31.00000000000000000 ) ;
#128 = ORIENTED_EDGE ( 'NONE', *, *, #119, .F. ) ;
#129 = DIRECTION ( 'NONE',  ( -1.000000000000000000, -3.061616997868383141E-16, 0.000000000000000000 ) ) ;
#130 = COORDINATED_UNIVERSAL_TIME_OFFSET ( 2, 0, .AHEAD. ) ;
#131 = ORIENTED_EDGE ( 'NONE', *, *, #17, .T. ) ;
#132 = DIRECTION ( 'NONE',  ( -1.000000000000000000, -3.061616997868383141E-16, -0.000000000000000000 ) ) ;
#133 = AXIS2_PLACEMENT_3D ( 'NONE', #82, #129, #103 ) ;
#134 = PERSON_AND_ORGANIZATION ( #81, #194 ) ;
#135 = PERSON_AND_ORGANIZATION_ROLE ( 'classification_officer' ) ;
#136 = ORIENTED_EDGE ( 'NONE', *, *, #28, .F. ) ;
#137 = COORDINATED_UNIVERSAL_TIME_OFFSET ( 2, 0, .AHEAD. ) ;
#138 = ADVANCED_FACE ( 'NONE', ( #52, #169 ), #106, .F. ) ;
#139 = FACE_OUTER_BOUND ( 'NONE', #149, .T. ) ;
#140 = PERSON_AND_ORGANIZATION ( #81, #194 ) ;
#141 = AXIS2_PLACEMENT_3D ( 'NONE', #16, #247, #207 ) ;
#142 = CIRCLE ( 'NONE', #6, 12.99999999999999822 ) ;
#143 = EDGE_CURVE ( 'NONE', #37, #37, #190, .T. ) ;
#144 = DIRECTION ( 'NONE',  ( -1.000000000000000000, -3.061616997868383141E-16, -0.000000000000000000 ) ) ;
#145 = PRODUCT_DEFINITION_SHAPE ( 'NONE', 'NONE',  #98 ) ;
#146 = ADVANCED_FACE ( 'NONE', ( #235, #178 ), #66, .T. ) ;
#147 = AXIS2_PLACEMENT_3D ( 'NONE', #113, #225, #55 ) ;
#148 = VERTEX_POINT ( 'NONE', #199 ) ;
#149 = EDGE_LOOP ( 'NONE', ( #152 ) ) ;
#150 = ORIENTED_EDGE ( 'NONE', *, *, #143, .F. ) ;
#151 = APPROVAL_STATUS ( 'not_yet_approved' ) ;
#152 = ORIENTED_EDGE ( 'NONE', *, *, #242, .F. ) ;
#153 = CYLINDRICAL_SURFACE ( 'NONE', #226, 40.00000000000000711 ) ;
#154 = ADVANCED_FACE ( 'NONE', ( #5, #22 ), #127, .T. ) ;
#155 = DIRECTION ( 'NONE',  ( -1.000000000000000000, -3.061616997868383141E-16, -0.000000000000000000 ) ) ;
#156 = CALENDAR_DATE ( 2025, 30, 6 ) ;
#157 = APPROVAL_PERSON_ORGANIZATION ( #170, #111, #246 ) ;
#158 = CC_DESIGN_PERSON_AND_ORGANIZATION_ASSIGNMENT ( #140, #223, ( #31 ) ) ;
#159 = DIRECTION ( 'NONE',  ( -1.000000000000000000, -3.061616997868383141E-16, -0.000000000000000000 ) ) ;
#160 = ADVANCED_FACE ( 'NONE', ( #75, #124 ), #196, .T. ) ;
#161 = DIRECTION ( 'NONE',  ( -1.000000000000000000, -3.061616997868383141E-16, -0.000000000000000000 ) ) ;
#162 = PLANE ( 'NONE',  #76 ) ;
#163 = AXIS2_PLACEMENT_3D ( 'NONE', #26, #126, #109 ) ;
#164 = DATE_AND_TIME ( #156, #249 ) ;
#165 = APPROVAL_DATE_TIME ( #167, #197 ) ;
#166 = EDGE_LOOP ( 'NONE', ( #70 ) ) ;
#167 = DATE_AND_TIME ( #25, #120 ) ;
#168 = EDGE_LOOP ( 'NONE', ( #186 ) ) ;
#169 = FACE_BOUND ( 'NONE', #90, .T. ) ;
#170 = PERSON_AND_ORGANIZATION ( #81, #194 ) ;
#171 = ORIENTED_EDGE ( 'NONE', *, *, #33, .F. ) ;
#172 = PERSON_AND_ORGANIZATION ( #81, #194 ) ;
#173 = CC_DESIGN_DATE_AND_TIME_ASSIGNMENT ( #240, #220, ( #1 ) ) ;
#174 = AXIS2_PLACEMENT_3D ( 'NONE', #198, #132, #91 ) ;
#175 = LOCAL_TIME ( 13, 2, 20.00000000000000000, #203 ) ;
#176 = FACE_OUTER_BOUND ( 'NONE', #108, .T. ) ;
#177 = VERTEX_POINT ( 'NONE', #4 ) ;
#178 = FACE_BOUND ( 'NONE', #180, .T. ) ;
#179 = DIRECTION ( 'NONE',  ( 3.035766082959412415E-16, -1.000000000000000000, 0.000000000000000000 ) ) ;
#180 = EDGE_LOOP ( 'NONE', ( #205 ) ) ;
#181 = VERTEX_POINT ( 'NONE', #77 ) ;
#182 = DIRECTION ( 'NONE',  ( 1.000000000000000000, 3.061616997868383141E-16, 0.000000000000000000 ) ) ;
#183 = CONICAL_SURFACE ( 'NONE', #163, 40.00000000000000000, 1.308996938995749426 ) ;
#184 = CARTESIAN_POINT ( 'NONE',  ( -8.000000000000000000, -4.898587196589413026E-15, 0.000000000000000000 ) ) ;
#185 = CC_DESIGN_SECURITY_CLASSIFICATION ( #1, ( #31 ) ) ;
#186 = ORIENTED_EDGE ( 'NONE', *, *, #28, .T. ) ;
#187 = DIRECTION ( 'NONE',  ( 1.000000000000000000, 0.000000000000000000, 0.000000000000000000 ) ) ;
#188 = EDGE_LOOP ( 'NONE', ( #45 ) ) ;
#189 = EDGE_CURVE ( 'NONE', #65, #65, #236, .T. ) ;
#190 = CIRCLE ( 'NONE', #102, 31.00000000000000000 ) ;
#191 = CC_DESIGN_APPROVAL ( #79, ( #98 ) ) ;
#192 = DIRECTION ( 'NONE',  ( -3.061616997868383141E-16, 1.000000000000000000, 0.000000000000000000 ) ) ;
#193 = APPLICATION_PROTOCOL_DEFINITION ( 'international standard', 'config_control_design', 1994, #195 ) ;
#194 = ORGANIZATION ( 'UNSPECIFIED', 'UNSPECIFIED', '' ) ;
#195 = APPLICATION_CONTEXT ( 'configuration controlled 3d designs of mechanical parts and assemblies' ) ;
#196 = CYLINDRICAL_SURFACE ( 'NONE', #209, 40.00000000000000000 ) ;
#197 = APPROVAL ( #151, 'UNSPECIFIED' ) ;
#198 = CARTESIAN_POINT ( 'NONE',  ( -3.999999999999990674, -3.673940397442056022E-15, 0.000000000000000000 ) ) ;
#199 = CARTESIAN_POINT ( 'NONE',  ( 8.000000000000026645, -40.00000000000000000, 0.000000000000000000 ) ) ;
#200 = CALENDAR_DATE ( 2025, 30, 6 ) ;
#201 = EDGE_LOOP ( 'NONE', ( #128 ) ) ;
#202 = AXIS2_PLACEMENT_3D ( 'NONE', #211, #229, #21 ) ;
#203 = COORDINATED_UNIVERSAL_TIME_OFFSET ( 2, 0, .AHEAD. ) ;
#204 = APPROVAL_ROLE ( '' ) ;
#205 = ORIENTED_EDGE ( 'NONE', *, *, #119, .T. ) ;
#206 = CALENDAR_DATE ( 2025, 30, 6 ) ;
#207 = DIRECTION ( 'NONE',  ( 3.035766082959411922E-16, -1.000000000000000000, 0.000000000000000000 ) ) ;
#208 = DATE_TIME_ROLE ( 'creation_date' ) ;
#209 = AXIS2_PLACEMENT_3D ( 'NONE', #121, #144, #179 ) ;
#210 = DIRECTION ( 'NONE',  ( -1.000000000000000000, -3.061616997868383141E-16, -0.000000000000000000 ) ) ;
#211 = CARTESIAN_POINT ( 'NONE',  ( 6.411542731880092383, -4.863247772463482936E-16, 0.000000000000000000 ) ) ;
#212 = MANIFOLD_SOLID_BREP ( 'Revolve1', #217 ) ;
#213 = CARTESIAN_POINT ( 'NONE',  ( -7.999999999999976019, -40.00000000000001421, 0.000000000000000000 ) ) ;
#214 = CARTESIAN_POINT ( 'NONE',  ( -8.000000000000000000, -4.898587196589413026E-15, 0.000000000000000000 ) ) ;
#215 = CARTESIAN_POINT ( 'NONE',  ( 8.000000000000003553, 1.540743955509788682E-30, 0.000000000000000000 ) ) ;
#216 = ADVANCED_FACE ( 'NONE', ( #23, #10 ), #162, .F. ) ;
#217 = CLOSED_SHELL ( 'NONE', ( #43, #216, #104, #146, #154, #57, #160, #138 ) ) ;
#218 = EDGE_LOOP ( 'NONE', ( #150 ) ) ;
#219 = DIRECTION ( 'NONE',  ( -1.000000000000000000, -3.061616997868383141E-16, -0.000000000000000000 ) ) ;
#220 = DATE_TIME_ROLE ( 'classification_date' ) ;
#221 = EDGE_LOOP ( 'NONE', ( #171 ) ) ;
#222 = CIRCLE ( 'NONE', #72, 40.00000000000000711 ) ;
#223 = PERSON_AND_ORGANIZATION_ROLE ( 'design_supplier' ) ;
#224 = ORIENTED_EDGE ( 'NONE', *, *, #17, .F. ) ;
#225 = DIRECTION ( 'NONE',  ( -1.000000000000000000, -3.061616997868383141E-16, -0.000000000000000000 ) ) ;
#226 = AXIS2_PLACEMENT_3D ( 'NONE', #184, #219, #46 ) ;
#227 = AXIS2_PLACEMENT_3D ( 'NONE', #243, #13, #187 ) ;
#228 = LOCAL_TIME ( 13, 2, 20.00000000000000000, #137 ) ;
#229 = DIRECTION ( 'NONE',  ( -1.000000000000000000, -3.061616997868383141E-16, -0.000000000000000000 ) ) ;
#230 = CIRCLE ( 'NONE', #174, 31.00000000000000355 ) ;
#231 = DIRECTION ( 'NONE',  ( 2.668805347656625692E-16, -1.000000000000000000, 0.000000000000000000 ) ) ;
#232 = CARTESIAN_POINT ( 'NONE',  ( -3.999999999999990674, -3.673940397442056022E-15, 0.000000000000000000 ) ) ;
#233 = CC_DESIGN_PERSON_AND_ORGANIZATION_ASSIGNMENT ( #172, #89, ( #58 ) ) ;
#234 = VERTEX_POINT ( 'NONE', #80 ) ;
#235 = FACE_OUTER_BOUND ( 'NONE', #24, .T. ) ;
#236 = CIRCLE ( 'NONE', #202, 40.00000000000000000 ) ;
#237 = SHAPE_DEFINITION_REPRESENTATION ( #145, #241 ) ;
#238 = EDGE_LOOP ( 'NONE', ( #136 ) ) ;
#239 = FACE_OUTER_BOUND ( 'NONE', #188, .T. ) ;
#240 = DATE_AND_TIME ( #27, #175 ) ;
#241 = ADVANCED_BREP_SHAPE_REPRESENTATION ( '250630 STEP 1-400392-01_3947', ( #212, #227 ), #18 ) ;
#242 = EDGE_CURVE ( 'NONE', #177, #177, #142, .T. ) ;
#243 = CARTESIAN_POINT ( 'NONE',  ( 0.000000000000000000, 0.000000000000000000, 0.000000000000000000 ) ) ;
#244 = ORIENTED_EDGE ( 'NONE', *, *, #242, .T. ) ;
#245 = FACE_OUTER_BOUND ( 'NONE', #41, .T. ) ;
#246 = APPROVAL_ROLE ( '' ) ;
#247 = DIRECTION ( 'NONE',  ( -1.000000000000000000, -3.061616997868383141E-16, -0.000000000000000000 ) ) ;
#248 = PERSON_AND_ORGANIZATION ( #81, #194 ) ;
#249 = LOCAL_TIME ( 13, 2, 20.00000000000000000, #130 ) ;
ENDSEC;
END-ISO-10303-21;
